ISO-10303-21;
HEADER;
FILE_DESCRIPTION (( 'STEP AP203' ),
    '1' );
FILE_NAME ('QM-CAQWP-15-650-1100-M.STEP',
    '2021-01-05T02:44:42',
    ( '' ),
    ( '' ),
    'SwSTEP 2.0',
    'SolidWorks 2020',
    '' );
FILE_SCHEMA (( 'CONFIG_CONTROL_DESIGN' ));
ENDSEC;

DATA;
#1 = CARTESIAN_POINT ( 'NONE',  ( 0.5000000000000008882, 0.000000000000000000, 0.000000000000000000 ) ) ;
#2 = ORIENTED_EDGE ( 'NONE', *, *, #169, .T. ) ;
#3 = CIRCLE ( 'NONE', #197, 7.500000000000000000 ) ;
#4 = ORIENTED_EDGE ( 'NONE', *, *, #199, .T. ) ;
#5 = CIRCLE ( 'NONE', #130, 7.500000000000000000 ) ;
#6 = CARTESIAN_POINT ( 'NONE',  ( 3.000000000000000000, 0.000000000000000000, 12.69999999999999929 ) ) ;
#7 = DATE_TIME_ROLE ( 'classification_date' ) ;
#8 = DIRECTION ( 'NONE',  ( -1.000000000000000000, -0.000000000000000000, -0.000000000000000000 ) ) ;
#9 = EDGE_CURVE ( 'NONE', #200, #251, #96, .T. ) ;
#10 = DIRECTION ( 'NONE',  ( -1.000000000000000000, -0.000000000000000000, -0.000000000000000000 ) ) ;
#11 = DIRECTION ( 'NONE',  ( 0.000000000000000000, 0.000000000000000000, 1.000000000000000000 ) ) ;
#12 = AXIS2_PLACEMENT_3D ( 'NONE', #223, #201, #320 ) ;
#13 = CALENDAR_DATE ( 2021, 5, 1 ) ;
#14 = CARTESIAN_POINT ( 'NONE',  ( 3.000000000000000000, 0.000000000000000000, 0.000000000000000000 ) ) ;
#15 = ORIENTED_EDGE ( 'NONE', *, *, #216, .F. ) ;
#16 = EDGE_CURVE ( 'NONE', #230, #335, #283, .T. ) ;
#17 = ORIENTED_EDGE ( 'NONE', *, *, #322, .T. ) ;
#18 = VECTOR ( 'NONE', #42, 1000.000000000000000 ) ;
#19 = COORDINATED_UNIVERSAL_TIME_OFFSET ( 8, 0, .AHEAD. ) ;
#20 = DIRECTION ( 'NONE',  ( -1.000000000000000000, -0.000000000000000000, -0.000000000000000000 ) ) ;
#21 = APPROVAL_ROLE ( '' ) ;
#22 = CYLINDRICAL_SURFACE ( 'NONE', #129, 7.499999999999998224 ) ;
#23 = AXIS2_PLACEMENT_3D ( 'NONE', #240, #334, #163 ) ;
#24 = PLANE ( 'NONE',  #326 ) ;
#25 = CARTESIAN_POINT ( 'NONE',  ( -1.614212418857619014, 1.555301434917138433E-15, -12.69999999999999929 ) ) ;
#26 = ADVANCED_FACE ( 'NONE', ( #120 ), #278, .F. ) ;
#27 = AXIS2_PLACEMENT_3D ( 'NONE', #152, #68, #11 ) ;
#28 = DIRECTION ( 'NONE',  ( 0.000000000000000000, 0.000000000000000000, 1.000000000000000000 ) ) ;
#29 = AXIS2_PLACEMENT_3D ( 'NONE', #238, #245, #188 ) ;
#30 = ORIENTED_EDGE ( 'NONE', *, *, #52, .F. ) ;
#31 = DIRECTION ( 'NONE',  ( 1.000000000000000000, 0.000000000000000000, 0.000000000000000000 ) ) ;
#32 = ORIENTED_EDGE ( 'NONE', *, *, #73, .T. ) ;
#33 = CC_DESIGN_DATE_AND_TIME_ASSIGNMENT ( #232, #329, ( #157 ) ) ;
#34 = ORIENTED_EDGE ( 'NONE', *, *, #311, .T. ) ;
#35 = DIRECTION ( 'NONE',  ( -1.000000000000000000, -0.000000000000000000, -0.000000000000000000 ) ) ;
#36 = ORIENTED_EDGE ( 'NONE', *, *, #228, .T. ) ;
#37 = PERSON_AND_ORGANIZATION ( #79, #192 ) ;
#38 = PERSON_AND_ORGANIZATION ( #79, #192 ) ;
#39 = ORIENTED_EDGE ( 'NONE', *, *, #16, .F. ) ;
#40 = SHAPE_DEFINITION_REPRESENTATION ( #144, #206 ) ;
#41 = CALENDAR_DATE ( 2021, 5, 1 ) ;
#42 = DIRECTION ( 'NONE',  ( -1.000000000000000000, -0.000000000000000000, -0.000000000000000000 ) ) ;
#43 = UNCERTAINTY_MEASURE_WITH_UNIT (LENGTH_MEASURE( 1.000000000000000082E-05 ), #89, 'distance_accuracy_value', 'NONE');
#44 = CIRCLE ( 'NONE', #23, 12.69999999999999929 ) ;
#45 = CARTESIAN_POINT ( 'NONE',  ( -0.5000000000000004441, 9.184850993605145972E-16, -7.499999999999998224 ) ) ;
#46 = ADVANCED_FACE ( 'NONE', ( #302 ), #226, .F. ) ;
#47 = VECTOR ( 'NONE', #20, 1000.000000000000000 ) ;
#48 = LOCAL_TIME ( 10, 44, 42.00000000000000000, #257 ) ;
#49 = EDGE_CURVE ( 'NONE', #196, #81, #193, .T. ) ;
#50 = CARTESIAN_POINT ( 'NONE',  ( 0.000000000000000000, 0.000000000000000000, 0.000000000000000000 ) ) ;
#51 = DIRECTION ( 'NONE',  ( 0.000000000000000000, 0.000000000000000000, 1.000000000000000000 ) ) ;
#52 = EDGE_CURVE ( 'NONE', #109, #265, #82, .T. ) ;
#53 = CARTESIAN_POINT ( 'NONE',  ( -1.614212418857619014, 0.000000000000000000, 12.69999999999999929 ) ) ;
#54 = CARTESIAN_POINT ( 'NONE',  ( 0.5000000000000004441, 7.500000000000000000, 0.000000000000000000 ) ) ;
#55 = CIRCLE ( 'NONE', #183, 7.499999999999998224 ) ;
#56 = AXIS2_PLACEMENT_3D ( 'NONE', #85, #211, #292 ) ;
#57 = LINE ( 'NONE', #167, #70 ) ;
#58 = ORIENTED_EDGE ( 'NONE', *, *, #173, .F. ) ;
#59 = CARTESIAN_POINT ( 'NONE',  ( -3.000000000000000000, 9.184850993605147944E-16, -7.500000000000000000 ) ) ;
#60 = VERTEX_POINT ( 'NONE', #45 ) ;
#61 = APPROVAL ( #205, 'UNSPECIFIED' ) ;
#62 = PERSON_AND_ORGANIZATION ( #79, #192 ) ;
#63 = ORIENTED_EDGE ( 'NONE', *, *, #317, .T. ) ;
#64 = PERSON_AND_ORGANIZATION ( #79, #192 ) ;
#65 =( NAMED_UNIT ( * ) SI_UNIT ( $, .STERADIAN. ) SOLID_ANGLE_UNIT ( ) );
#66 = CARTESIAN_POINT ( 'NONE',  ( -1.614212418857619014, 0.000000000000000000, 7.499999999999998224 ) ) ;
#67 = PERSON_AND_ORGANIZATION ( #79, #192 ) ;
#68 = DIRECTION ( 'NONE',  ( -1.000000000000000000, -0.000000000000000000, -0.000000000000000000 ) ) ;
#69 = DIRECTION ( 'NONE',  ( -1.000000000000000000, -0.000000000000000000, -0.000000000000000000 ) ) ;
#70 = VECTOR ( 'NONE', #166, 1000.000000000000000 ) ;
#71 = CARTESIAN_POINT ( 'NONE',  ( -3.000000000000000000, 0.000000000000000000, 7.500000000000000000 ) ) ;
#72 = EDGE_LOOP ( 'NONE', ( #270, #212 ) ) ;
#73 = EDGE_CURVE ( 'NONE', #335, #230, #309, .T. ) ;
#74 = DIRECTION ( 'NONE',  ( -1.000000000000000000, -0.000000000000000000, -0.000000000000000000 ) ) ;
#75 = SECURITY_CLASSIFICATION ( '', '', #319 ) ;
#76 = DESIGN_CONTEXT ( 'detailed design', #155, 'design' ) ;
#77 = CARTESIAN_POINT ( 'NONE',  ( -1.614212418857619014, 0.000000000000000000, 0.000000000000000000 ) ) ;
#78 = DIRECTION ( 'NONE',  ( 0.000000000000000000, 0.000000000000000000, 1.000000000000000000 ) ) ;
#79 = PERSON ( 'UNSPECIFIED', 'UNSPECIFIED', 'UNSPECIFIED', ('UNSPECIFIED'), ('UNSPECIFIED'), ('UNSPECIFIED') ) ;
#80 = DIRECTION ( 'NONE',  ( -0.000000000000000000, 0.000000000000000000, 1.000000000000000000 ) ) ;
#81 = VERTEX_POINT ( 'NONE', #71 ) ;
#82 = CIRCLE ( 'NONE', #314, 12.69999999999999929 ) ;
#83 = CARTESIAN_POINT ( 'NONE',  ( -3.000000000000000000, 1.555301434917138433E-15, -12.69999999999999929 ) ) ;
#84 = EDGE_LOOP ( 'NONE', ( #299, #4 ) ) ;
#85 = CARTESIAN_POINT ( 'NONE',  ( -1.614212418857619014, 0.000000000000000000, 0.000000000000000000 ) ) ;
#86 = EDGE_LOOP ( 'NONE', ( #271, #187, #17, #327 ) ) ;
#87 = CARTESIAN_POINT ( 'NONE',  ( -0.5000000000000004441, 0.000000000000000000, 0.000000000000000000 ) ) ;
#88 = ORIENTED_EDGE ( 'NONE', *, *, #9, .T. ) ;
#89 =( LENGTH_UNIT ( ) NAMED_UNIT ( * ) SI_UNIT ( .MILLI., .METRE. ) );
#90 = AXIS2_PLACEMENT_3D ( 'NONE', #138, #35, #290 ) ;
#91 = DIRECTION ( 'NONE',  ( 1.000000000000000000, 0.000000000000000000, 0.000000000000000000 ) ) ;
#92 = ORIENTED_EDGE ( 'NONE', *, *, #49, .T. ) ;
#93 = EDGE_CURVE ( 'NONE', #196, #60, #55, .T. ) ;
#94 = CARTESIAN_POINT ( 'NONE',  ( -3.000000000000000000, 0.000000000000000000, 0.000000000000000000 ) ) ;
#95 = EDGE_LOOP ( 'NONE', ( #170, #313 ) ) ;
#96 = CIRCLE ( 'NONE', #27, 7.499999999999997335 ) ;
#97 = CC_DESIGN_PERSON_AND_ORGANIZATION_ASSIGNMENT ( #67, #172, ( #75 ) ) ;
#98 = DIRECTION ( 'NONE',  ( -0.000000000000000000, 0.000000000000000000, 1.000000000000000000 ) ) ;
#99 = CARTESIAN_POINT ( 'NONE',  ( 0.5000000000000008882, 0.000000000000000000, 7.500000000000000000 ) ) ;
#100 = PERSON_AND_ORGANIZATION ( #79, #192 ) ;
#101 = PRODUCT_DEFINITION_FORMATION_WITH_SPECIFIED_SOURCE ( 'ANY', '', #254, .NOT_KNOWN. ) ;
#102 = FACE_OUTER_BOUND ( 'NONE', #143, .T. ) ;
#103 = ADVANCED_FACE ( 'NONE', ( #102 ), #306, .T. ) ;
#104 = APPROVAL_ROLE ( '' ) ;
#105 = APPLICATION_CONTEXT ( 'configuration controlled 3d designs of mechanical parts and assemblies' ) ;
#106 = CLOSED_SHELL ( 'NONE', ( #191, #298, #115, #266, #26, #133, #291, #103, #125, #46 ) ) ;
#107 = CC_DESIGN_SECURITY_CLASSIFICATION ( #75, ( #101 ) ) ;
#108 = LINE ( 'NONE', #182, #218 ) ;
#109 = VERTEX_POINT ( 'NONE', #281 ) ;
#110 = EDGE_LOOP ( 'NONE', ( #135, #222, #34, #253 ) ) ;
#111 = DIRECTION ( 'NONE',  ( -1.000000000000000000, -0.000000000000000000, -0.000000000000000000 ) ) ;
#112 = AXIS2_PLACEMENT_3D ( 'NONE', #54, #161, #80 ) ;
#113 = CIRCLE ( 'NONE', #301, 7.499999999999998224 ) ;
#114 = DIRECTION ( 'NONE',  ( -1.000000000000000000, -0.000000000000000000, -0.000000000000000000 ) ) ;
#115 = ADVANCED_FACE ( 'NONE', ( #179 ), #280, .F. ) ;
#116 = APPROVAL_STATUS ( 'not_yet_approved' ) ;
#117 = VERTEX_POINT ( 'NONE', #99 ) ;
#118 = DATE_AND_TIME ( #249, #304 ) ;
#119 = CC_DESIGN_APPROVAL ( #61, ( #157 ) ) ;
#120 = FACE_OUTER_BOUND ( 'NONE', #217, .T. ) ;
#121 = CALENDAR_DATE ( 2021, 5, 1 ) ;
#122 = DIRECTION ( 'NONE',  ( 0.000000000000000000, 0.000000000000000000, 1.000000000000000000 ) ) ;
#123 = CARTESIAN_POINT ( 'NONE',  ( -0.5000000000000004441, 7.500000000000000000, 0.000000000000000000 ) ) ;
#124 = ORIENTED_EDGE ( 'NONE', *, *, #202, .T. ) ;
#125 = ADVANCED_FACE ( 'NONE', ( #203, #160 ), #24, .F. ) ;
#126 = CALENDAR_DATE ( 2021, 5, 1 ) ;
#127 = DIRECTION ( 'NONE',  ( 0.000000000000000000, 0.000000000000000000, 1.000000000000000000 ) ) ;
#128 = CARTESIAN_POINT ( 'NONE',  ( -1.614212418857619014, 0.000000000000000000, 0.000000000000000000 ) ) ;
#129 = AXIS2_PLACEMENT_3D ( 'NONE', #128, #237, #331 ) ;
#130 = AXIS2_PLACEMENT_3D ( 'NONE', #285, #263, #28 ) ;
#131 = FACE_OUTER_BOUND ( 'NONE', #214, .T. ) ;
#132 = CARTESIAN_POINT ( 'NONE',  ( 3.000000000000000000, 12.69999999999999929, 0.000000000000000000 ) ) ;
#133 = ADVANCED_FACE ( 'NONE', ( #131 ), #22, .F. ) ;
#134 = CARTESIAN_POINT ( 'NONE',  ( -3.000000000000000000, 0.000000000000000000, 0.000000000000000000 ) ) ;
#135 = ORIENTED_EDGE ( 'NONE', *, *, #9, .F. ) ;
#136 = CYLINDRICAL_SURFACE ( 'NONE', #90, 12.69999999999999929 ) ;
#137 = AXIS2_PLACEMENT_3D ( 'NONE', #233, #328, #180 ) ;
#138 = CARTESIAN_POINT ( 'NONE',  ( -1.614212418857619014, 0.000000000000000000, 0.000000000000000000 ) ) ;
#139 = ORIENTED_EDGE ( 'NONE', *, *, #173, .T. ) ;
#140 = PRODUCT_RELATED_PRODUCT_CATEGORY ( 'detail', '', ( #254 ) ) ;
#141 = ORIENTED_EDGE ( 'NONE', *, *, #199, .F. ) ;
#142 = APPROVAL_DATE_TIME ( #118, #195 ) ;
#143 = EDGE_LOOP ( 'NONE', ( #227, #32, #139, #141 ) ) ;
#144 = PRODUCT_DEFINITION_SHAPE ( 'NONE', 'NONE',  #157 ) ;
#145 = COORDINATED_UNIVERSAL_TIME_OFFSET ( 8, 0, .AHEAD. ) ;
#146 = APPROVAL_DATE_TIME ( #154, #61 ) ;
#147 = AXIS2_PLACEMENT_3D ( 'NONE', #207, #308, #78 ) ;
#148 = CARTESIAN_POINT ( 'NONE',  ( -1.614212418857619014, 0.000000000000000000, 0.000000000000000000 ) ) ;
#149 = EDGE_LOOP ( 'NONE', ( #39, #150 ) ) ;
#150 = ORIENTED_EDGE ( 'NONE', *, *, #73, .F. ) ;
#151 = EDGE_CURVE ( 'NONE', #251, #200, #235, .T. ) ;
#152 = CARTESIAN_POINT ( 'NONE',  ( 3.000000000000000000, 0.000000000000000000, 0.000000000000000000 ) ) ;
#153 = LOCAL_TIME ( 10, 44, 42.00000000000000000, #274 ) ;
#154 = DATE_AND_TIME ( #41, #294 ) ;
#155 = APPLICATION_CONTEXT ( 'configuration controlled 3d designs of mechanical parts and assemblies' ) ;
#156 = APPLICATION_PROTOCOL_DEFINITION ( 'international standard', 'config_control_design', 1994, #105 ) ;
#157 = PRODUCT_DEFINITION ( 'UNKNOWN', '', #101, #76 ) ;
#158 = AXIS2_PLACEMENT_3D ( 'NONE', #14, #8, #248 ) ;
#159 = LOCAL_TIME ( 10, 44, 42.00000000000000000, #295 ) ;
#160 = FACE_BOUND ( 'NONE', #296, .T. ) ;
#161 = DIRECTION ( 'NONE',  ( -1.000000000000000000, 0.000000000000000000, -0.000000000000000000 ) ) ;
#162 = CC_DESIGN_PERSON_AND_ORGANIZATION_ASSIGNMENT ( #64, #190, ( #101 ) ) ;
#163 = DIRECTION ( 'NONE',  ( 0.000000000000000000, 0.000000000000000000, 1.000000000000000000 ) ) ;
#164 = CC_DESIGN_APPROVAL ( #195, ( #75 ) ) ;
#165 = AXIS2_PLACEMENT_3D ( 'NONE', #123, #91, #324 ) ;
#166 = DIRECTION ( 'NONE',  ( -1.000000000000000000, -0.000000000000000000, -0.000000000000000000 ) ) ;
#167 = CARTESIAN_POINT ( 'NONE',  ( -1.614212418857619014, 9.184850993605145972E-16, -7.499999999999998224 ) ) ;
#168 = ORIENTED_EDGE ( 'NONE', *, *, #151, .F. ) ;
#169 = EDGE_CURVE ( 'NONE', #335, #265, #261, .T. ) ;
#170 = ORIENTED_EDGE ( 'NONE', *, *, #93, .F. ) ;
#171 = AXIS2_PLACEMENT_3D ( 'NONE', #148, #224, #321 ) ;
#172 = PERSON_AND_ORGANIZATION_ROLE ( 'classification_officer' ) ;
#173 = EDGE_CURVE ( 'NONE', #230, #109, #310, .T. ) ;
#174 = APPROVAL_ROLE ( '' ) ;
#175 = DIRECTION ( 'NONE',  ( 0.000000000000000000, 0.000000000000000000, 1.000000000000000000 ) ) ;
#176 = ORIENTED_EDGE ( 'NONE', *, *, #276, .F. ) ;
#177 = DIRECTION ( 'NONE',  ( 1.000000000000000000, 0.000000000000000000, 0.000000000000000000 ) ) ;
#178 = CARTESIAN_POINT ( 'NONE',  ( -0.5000000000000004441, 0.000000000000000000, 0.000000000000000000 ) ) ;
#179 = FACE_OUTER_BOUND ( 'NONE', #110, .T. ) ;
#180 = DIRECTION ( 'NONE',  ( 0.000000000000000000, 0.000000000000000000, 1.000000000000000000 ) ) ;
#181 = PLANE ( 'NONE',  #29 ) ;
#182 = CARTESIAN_POINT ( 'NONE',  ( -1.614212418857619014, 0.000000000000000000, 7.499999999999998224 ) ) ;
#183 = AXIS2_PLACEMENT_3D ( 'NONE', #178, #177, #307 ) ;
#184 = FACE_BOUND ( 'NONE', #72, .T. ) ;
#185 = EDGE_LOOP ( 'NONE', ( #273, #2, #30, #58 ) ) ;
#186 = FACE_OUTER_BOUND ( 'NONE', #185, .T. ) ;
#187 = ORIENTED_EDGE ( 'NONE', *, *, #216, .T. ) ;
#188 = DIRECTION ( 'NONE',  ( 0.000000000000000000, 0.000000000000000000, -1.000000000000000000 ) ) ;
#189 = VERTEX_POINT ( 'NONE', #59 ) ;
#190 = PERSON_AND_ORGANIZATION_ROLE ( 'creator' ) ;
#191 = ADVANCED_FACE ( 'NONE', ( #186 ), #136, .T. ) ;
#192 = ORGANIZATION ( 'UNSPECIFIED', 'UNSPECIFIED', '' ) ;
#193 = LINE ( 'NONE', #66, #18 ) ;
#194 = PERSON_AND_ORGANIZATION_ROLE ( 'design_supplier' ) ;
#195 = APPROVAL ( #116, 'UNSPECIFIED' ) ;
#196 = VERTEX_POINT ( 'NONE', #213 ) ;
#197 = AXIS2_PLACEMENT_3D ( 'NONE', #1, #111, #312 ) ;
#198 = DIRECTION ( 'NONE',  ( 0.000000000000000000, 0.000000000000000000, 1.000000000000000000 ) ) ;
#199 = EDGE_CURVE ( 'NONE', #265, #109, #44, .T. ) ;
#200 = VERTEX_POINT ( 'NONE', #244 ) ;
#201 = DIRECTION ( 'NONE',  ( -1.000000000000000000, -0.000000000000000000, -0.000000000000000000 ) ) ;
#202 = EDGE_CURVE ( 'NONE', #251, #117, #108, .T. ) ;
#203 = FACE_OUTER_BOUND ( 'NONE', #149, .T. ) ;
#204 =( GEOMETRIC_REPRESENTATION_CONTEXT ( 3 ) GLOBAL_UNCERTAINTY_ASSIGNED_CONTEXT ( ( #43 ) ) GLOBAL_UNIT_ASSIGNED_CONTEXT ( ( #89, #231, #65 ) ) REPRESENTATION_CONTEXT ( 'NONE', 'WORKASPACE' ) );
#205 = APPROVAL_STATUS ( 'not_yet_approved' ) ;
#206 = ADVANCED_BREP_SHAPE_REPRESENTATION ( 'QM-CAQWP-15-650-1100-M', ( #220, #250 ), #204 ) ;
#207 = CARTESIAN_POINT ( 'NONE',  ( 3.000000000000000000, 0.000000000000000000, 0.000000000000000000 ) ) ;
#208 = AXIS2_PLACEMENT_3D ( 'NONE', #300, #69, #198 ) ;
#209 = AXIS2_PLACEMENT_3D ( 'NONE', #134, #10, #127 ) ;
#210 = EDGE_CURVE ( 'NONE', #200, #303, #57, .T. ) ;
#211 = DIRECTION ( 'NONE',  ( -1.000000000000000000, -0.000000000000000000, -0.000000000000000000 ) ) ;
#212 = ORIENTED_EDGE ( 'NONE', *, *, #322, .F. ) ;
#213 = CARTESIAN_POINT ( 'NONE',  ( -0.5000000000000004441, 0.000000000000000000, 7.499999999999998224 ) ) ;
#214 = EDGE_LOOP ( 'NONE', ( #15, #36, #92, #63 ) ) ;
#215 = CARTESIAN_POINT ( 'NONE',  ( 3.000000000000000000, 0.000000000000000000, 7.499999999999997335 ) ) ;
#216 = EDGE_CURVE ( 'NONE', #60, #189, #221, .T. ) ;
#217 = EDGE_LOOP ( 'NONE', ( #318, #168, #124, #316 ) ) ;
#218 = VECTOR ( 'NONE', #286, 1000.000000000000000 ) ;
#219 = PLANE ( 'NONE',  #112 ) ;
#220 = MANIFOLD_SOLID_BREP ( 'Ðý×', #106 ) ;
#221 = LINE ( 'NONE', #267, #260 ) ;
#222 = ORIENTED_EDGE ( 'NONE', *, *, #210, .T. ) ;
#223 = CARTESIAN_POINT ( 'NONE',  ( -3.000000000000000000, 0.000000000000000000, 0.000000000000000000 ) ) ;
#224 = DIRECTION ( 'NONE',  ( -1.000000000000000000, -0.000000000000000000, -0.000000000000000000 ) ) ;
#225 = CIRCLE ( 'NONE', #12, 7.500000000000000000 ) ;
#226 = PLANE ( 'NONE',  #165 ) ;
#227 = ORIENTED_EDGE ( 'NONE', *, *, #169, .F. ) ;
#228 = EDGE_CURVE ( 'NONE', #60, #196, #113, .T. ) ;
#229 = DIRECTION ( 'NONE',  ( -1.000000000000000000, -0.000000000000000000, -0.000000000000000000 ) ) ;
#230 = VERTEX_POINT ( 'NONE', #6 ) ;
#231 =( NAMED_UNIT ( * ) PLANE_ANGLE_UNIT ( ) SI_UNIT ( $, .RADIAN. ) );
#232 = DATE_AND_TIME ( #126, #48 ) ;
#233 = CARTESIAN_POINT ( 'NONE',  ( -1.614212418857619014, 0.000000000000000000, 0.000000000000000000 ) ) ;
#234 = PERSON_AND_ORGANIZATION ( #79, #192 ) ;
#235 = CIRCLE ( 'NONE', #147, 7.499999999999997335 ) ;
#236 = APPROVAL_PERSON_ORGANIZATION ( #100, #61, #21 ) ;
#237 = DIRECTION ( 'NONE',  ( -1.000000000000000000, -0.000000000000000000, -0.000000000000000000 ) ) ;
#238 = CARTESIAN_POINT ( 'NONE',  ( -3.000000000000000000, 7.500000000000000000, 0.000000000000000000 ) ) ;
#239 = AXIS2_PLACEMENT_3D ( 'NONE', #77, #74, #51 ) ;
#240 = CARTESIAN_POINT ( 'NONE',  ( -3.000000000000000000, 0.000000000000000000, 0.000000000000000000 ) ) ;
#241 = ORIENTED_EDGE ( 'NONE', *, *, #151, .T. ) ;
#242 = CC_DESIGN_PERSON_AND_ORGANIZATION_ASSIGNMENT ( #234, #247, ( #254 ) ) ;
#243 = DIRECTION ( 'NONE',  ( 0.000000000000000000, 0.000000000000000000, -1.000000000000000000 ) ) ;
#244 = CARTESIAN_POINT ( 'NONE',  ( 3.000000000000000000, 9.184850993605144000E-16, -7.499999999999997335 ) ) ;
#245 = DIRECTION ( 'NONE',  ( 1.000000000000000000, 0.000000000000000000, 0.000000000000000000 ) ) ;
#246 = DATE_AND_TIME ( #13, #159 ) ;
#247 = PERSON_AND_ORGANIZATION_ROLE ( 'design_owner' ) ;
#248 = DIRECTION ( 'NONE',  ( 0.000000000000000000, 0.000000000000000000, 1.000000000000000000 ) ) ;
#249 = CALENDAR_DATE ( 2021, 5, 1 ) ;
#250 = AXIS2_PLACEMENT_3D ( 'NONE', #50, #175, #275 ) ;
#251 = VERTEX_POINT ( 'NONE', #215 ) ;
#252 = APPROVAL ( #282, 'UNSPECIFIED' ) ;
#253 = ORIENTED_EDGE ( 'NONE', *, *, #202, .F. ) ;
#254 = PRODUCT ( 'QM-CAQWP-15-650-1100-M', 'QM-CAQWP-15-650-1100-M', '', ( #258 ) ) ;
#255 = APPROVAL_PERSON_ORGANIZATION ( #62, #252, #104 ) ;
#256 = CC_DESIGN_DATE_AND_TIME_ASSIGNMENT ( #246, #7, ( #75 ) ) ;
#257 = COORDINATED_UNIVERSAL_TIME_OFFSET ( 8, 0, .AHEAD. ) ;
#258 = MECHANICAL_CONTEXT ( 'NONE', #105, 'mechanical' ) ;
#259 = DIRECTION ( 'NONE',  ( -1.000000000000000000, 0.000000000000000000, -0.000000000000000000 ) ) ;
#260 = VECTOR ( 'NONE', #114, 1000.000000000000000 ) ;
#261 = LINE ( 'NONE', #25, #293 ) ;
#262 = CARTESIAN_POINT ( 'NONE',  ( 0.5000000000000008882, 9.184850993605147944E-16, -7.500000000000000000 ) ) ;
#263 = DIRECTION ( 'NONE',  ( -1.000000000000000000, -0.000000000000000000, -0.000000000000000000 ) ) ;
#264 = APPROVAL_PERSON_ORGANIZATION ( #37, #195, #174 ) ;
#265 = VERTEX_POINT ( 'NONE', #83 ) ;
#266 = ADVANCED_FACE ( 'NONE', ( #268 ), #219, .F. ) ;
#267 = CARTESIAN_POINT ( 'NONE',  ( -1.614212418857619014, 9.184850993605145972E-16, -7.499999999999998224 ) ) ;
#268 = FACE_OUTER_BOUND ( 'NONE', #325, .T. ) ;
#269 = CYLINDRICAL_SURFACE ( 'NONE', #56, 7.499999999999998224 ) ;
#270 = ORIENTED_EDGE ( 'NONE', *, *, #317, .F. ) ;
#271 = ORIENTED_EDGE ( 'NONE', *, *, #93, .T. ) ;
#272 = DATE_AND_TIME ( #121, #153 ) ;
#273 = ORIENTED_EDGE ( 'NONE', *, *, #16, .T. ) ;
#274 = COORDINATED_UNIVERSAL_TIME_OFFSET ( 8, 0, .AHEAD. ) ;
#275 = DIRECTION ( 'NONE',  ( 1.000000000000000000, 0.000000000000000000, 0.000000000000000000 ) ) ;
#276 = EDGE_CURVE ( 'NONE', #117, #303, #3, .T. ) ;
#277 = CC_DESIGN_PERSON_AND_ORGANIZATION_ASSIGNMENT ( #297, #194, ( #101 ) ) ;
#278 = CYLINDRICAL_SURFACE ( 'NONE', #171, 7.499999999999998224 ) ;
#279 = PERSON_AND_ORGANIZATION_ROLE ( 'creator' ) ;
#280 = CYLINDRICAL_SURFACE ( 'NONE', #137, 7.499999999999998224 ) ;
#281 = CARTESIAN_POINT ( 'NONE',  ( -3.000000000000000000, 0.000000000000000000, 12.69999999999999929 ) ) ;
#282 = APPROVAL_STATUS ( 'not_yet_approved' ) ;
#283 = CIRCLE ( 'NONE', #158, 12.69999999999999929 ) ;
#284 = CIRCLE ( 'NONE', #209, 7.500000000000000000 ) ;
#285 = CARTESIAN_POINT ( 'NONE',  ( 0.5000000000000008882, 0.000000000000000000, 0.000000000000000000 ) ) ;
#286 = DIRECTION ( 'NONE',  ( -1.000000000000000000, -0.000000000000000000, -0.000000000000000000 ) ) ;
#287 = CC_DESIGN_APPROVAL ( #252, ( #101 ) ) ;
#288 = FACE_OUTER_BOUND ( 'NONE', #84, .T. ) ;
#289 = ORIENTED_EDGE ( 'NONE', *, *, #311, .F. ) ;
#290 = DIRECTION ( 'NONE',  ( 0.000000000000000000, 0.000000000000000000, 1.000000000000000000 ) ) ;
#291 = ADVANCED_FACE ( 'NONE', ( #184, #288 ), #181, .F. ) ;
#292 = DIRECTION ( 'NONE',  ( 0.000000000000000000, 0.000000000000000000, 1.000000000000000000 ) ) ;
#293 = VECTOR ( 'NONE', #332, 1000.000000000000000 ) ;
#294 = LOCAL_TIME ( 10, 44, 42.00000000000000000, #19 ) ;
#295 = COORDINATED_UNIVERSAL_TIME_OFFSET ( 8, 0, .AHEAD. ) ;
#296 = EDGE_LOOP ( 'NONE', ( #241, #88 ) ) ;
#297 = PERSON_AND_ORGANIZATION ( #79, #192 ) ;
#298 = ADVANCED_FACE ( 'NONE', ( #315 ), #269, .F. ) ;
#299 = ORIENTED_EDGE ( 'NONE', *, *, #52, .T. ) ;
#300 = CARTESIAN_POINT ( 'NONE',  ( 3.000000000000000000, 0.000000000000000000, 0.000000000000000000 ) ) ;
#301 = AXIS2_PLACEMENT_3D ( 'NONE', #87, #31, #243 ) ;
#302 = FACE_OUTER_BOUND ( 'NONE', #95, .T. ) ;
#303 = VERTEX_POINT ( 'NONE', #262 ) ;
#304 = LOCAL_TIME ( 10, 44, 42.00000000000000000, #145 ) ;
#305 = CARTESIAN_POINT ( 'NONE',  ( 3.000000000000000000, 1.555301434917138433E-15, -12.69999999999999929 ) ) ;
#306 = CYLINDRICAL_SURFACE ( 'NONE', #239, 12.69999999999999929 ) ;
#307 = DIRECTION ( 'NONE',  ( 0.000000000000000000, 0.000000000000000000, -1.000000000000000000 ) ) ;
#308 = DIRECTION ( 'NONE',  ( -1.000000000000000000, -0.000000000000000000, -0.000000000000000000 ) ) ;
#309 = CIRCLE ( 'NONE', #208, 12.69999999999999929 ) ;
#310 = LINE ( 'NONE', #53, #47 ) ;
#311 = EDGE_CURVE ( 'NONE', #303, #117, #5, .T. ) ;
#312 = DIRECTION ( 'NONE',  ( 0.000000000000000000, 0.000000000000000000, 1.000000000000000000 ) ) ;
#313 = ORIENTED_EDGE ( 'NONE', *, *, #228, .F. ) ;
#314 = AXIS2_PLACEMENT_3D ( 'NONE', #94, #229, #122 ) ;
#315 = FACE_OUTER_BOUND ( 'NONE', #86, .T. ) ;
#316 = ORIENTED_EDGE ( 'NONE', *, *, #276, .T. ) ;
#317 = EDGE_CURVE ( 'NONE', #81, #189, #284, .T. ) ;
#318 = ORIENTED_EDGE ( 'NONE', *, *, #210, .F. ) ;
#319 = SECURITY_CLASSIFICATION_LEVEL ( 'unclassified' ) ;
#320 = DIRECTION ( 'NONE',  ( 0.000000000000000000, 0.000000000000000000, 1.000000000000000000 ) ) ;
#321 = DIRECTION ( 'NONE',  ( 0.000000000000000000, 0.000000000000000000, 1.000000000000000000 ) ) ;
#322 = EDGE_CURVE ( 'NONE', #189, #81, #225, .T. ) ;
#323 = APPROVAL_DATE_TIME ( #272, #252 ) ;
#324 = DIRECTION ( 'NONE',  ( 0.000000000000000000, 0.000000000000000000, -1.000000000000000000 ) ) ;
#325 = EDGE_LOOP ( 'NONE', ( #176, #289 ) ) ;
#326 = AXIS2_PLACEMENT_3D ( 'NONE', #132, #259, #98 ) ;
#327 = ORIENTED_EDGE ( 'NONE', *, *, #49, .F. ) ;
#328 = DIRECTION ( 'NONE',  ( -1.000000000000000000, -0.000000000000000000, -0.000000000000000000 ) ) ;
#329 = DATE_TIME_ROLE ( 'creation_date' ) ;
#330 = APPLICATION_PROTOCOL_DEFINITION ( 'international standard', 'config_control_design', 1994, #155 ) ;
#331 = DIRECTION ( 'NONE',  ( 0.000000000000000000, 0.000000000000000000, 1.000000000000000000 ) ) ;
#332 = DIRECTION ( 'NONE',  ( -1.000000000000000000, -0.000000000000000000, -0.000000000000000000 ) ) ;
#333 = CC_DESIGN_PERSON_AND_ORGANIZATION_ASSIGNMENT ( #38, #279, ( #157 ) ) ;
#334 = DIRECTION ( 'NONE',  ( -1.000000000000000000, -0.000000000000000000, -0.000000000000000000 ) ) ;
#335 = VERTEX_POINT ( 'NONE', #305 ) ;
ENDSEC;
END-ISO-10303-21;
